Print Version ]

www.ChristianGuitar.com
Christian Guitar Tab & Bass Tab

Uncle Bob's Guitar Lessons
Lesson 13 - Scale Patterns
(Back to home / Back to contents)

Minor Scales

N/A.

The Minor Scale

N/A

The Minor Pentatonic Scale

N/A

A Minor Pentatonic Scale (Exercise)

E ----------------------------------------------------------5---5-8-5-8--
B ----------------------------------------------5---5-8-5-8---8----------
G ----------------------------------5---5-7-5-7---7----------------------
D ----------------------5---5-7-5-7---7----------------------------------
A ----------5---5-7-5-7---7----------------------------------------------
E --5-8-5-8---8----------------------------------------------------------
  ( 1 4 1 4 1 4 1 3 1 3 1 3 1 3 1 3 1 3 1 3 1 3 1 3 1 4 1 4 1 4 1 4 1 4 )


E --8-5---5--------------------------------------------------------------
B ------8---8-5-8-5---5--------------------------------------------------
G ------------------7---7-5-7-5---5--------------------------------------
D ------------------------------7---7-5-7-5---5--------------------------
A ------------------------------------------7---7-5-7-5---5--------------
E ------------------------------------------------------8---8-5----------
  ( 4 1 4 1 4 1 4 1 3 1 3 1 3 1 3 1 3 1 3 1 3 1 3 1 3 1 4 1 4 1 )

Previous PageBack to TopNext Page
Glad - The Acapella Project II AD - Time Line Godspell - Godspell [Understudy Cast] Petra - No Doubt Officer Negative - Dead to the World Eden's Bridge - Celtic Praise Deliverance - Learn Outer Circle - Outer Circle Tourniquet - Pathogenic Ocular Dissonance Veggie Tales - Veggie Tunes 2
Copyright 2001 -2020